گیتاریستها مرجع آکورد ایران


لطفا کپی نکنید!!!یا در صورت کپی اسم سایت را ذکر کنید.

 

سلام اميدوارم حال همگی خوب باشه.ماندانا جان برای سوالی که پرسيدی تا حدی ميشه پاسخ درست داد چون اين دقيقا جاييه که سليقه ی تنظيم کننده به کار رفته و چون  Em=می-سل-سی- و G=سل-سی-ر که برای تزيين از G استفاده شده بازم اگه سوالی داشتی بگو ولی اين يه توضيح کلی بود در مورد آکوردی که خواستی نقششو بدونی.

اينم يه آهنگ جديد و گيتاری از سعيد محمدی. 

Intro

E| ---------7--8--8--8--8--|--7-7-7-7------------------------- | -----8----------------| ------------|

B| ----10--------------------|-------------10--10--10--8--10-| -10---10--8--------| --------------|

G| -9-------------------------| ---------------------------------| ----------------10--| -----10--9---|

D| ----------------------------| --------------------------------| ---------------------| -10----------|

A| ----------------------------| ---------------------------------| --------------------| ---------------|

E| ----------------------------| ---------------------------------| --------------------| ---------------|

Am--------------------------

to ze dyare man amadi

-------------------------------------

sokoote janam be ham zadi

G----------------------------------------F-------Am

shisheye gham be talangori zadi shekast

Am---------------------------------------

cho naghmeyee bisho kam zadi

----------------------------------------

be dele risham to chang zadi

G---------------------------------------F--------Am

roshanye cheshmoone to be del neshast

G--------------------------------Am

havaye man shod havaye to

G---------------------------------Am

sedaye man shod sedaye to

G--------------------------------Am

tapidane ghalb be khaterat

G------------------------------Am

keshidane dard baraye to

Am------------------------------

ey gole yase sepide man

----------------------------------

ey tolooe khorshide man

G-------------------------------

atre tane to be jane man

----------F---------Am

che khosh neshast

Am--------------------------------

ey to ham geryeye depazir

------------------------------

ey to safaye dele asir

G------------------------------------------------Am

bi to ey aayate zendegi delam shekast

G-----------------------------Am

age nafas bood baraye to

G-------------------------------------Am

ghame havas bood baraye man

G----------------------------Am

age aziz bood baraye to

G----------------------------------Am

harfo hadis bood baraye man

Am---------------------------

to ze dyare man amadi

E|-5--7--5-----------------------|

B|----------8--6---------6--5---|

G|------------------5-------------|

D|---------------------------------|

A|---------------------------------|

E|---------------------------------|

Am--------------------------------

sokoote janam be ham zadi

E|-5--7--5----------------------|

B|----------8---6-------6--5---|

G|-------------------5-----------|

D|--------------------------------|

A|--------------------------------|

E|--------------------------------|

فردا برام روز واقعا مهميه خواهش ميکنم برام دعا کنيد بعدا دليلش رو توضيح ميدم.خدا نگهدار.

   + امید کاویانی و موسوی - ۱٠:٢۳ ‎ب.ظ ; ۱۳۸٥/٥/۳